Santa Love

(/) Slide Up  (\) Slide Down  (h) Hammer On  (p) Pull Off  (b) Bend (r) Release (v) Vibrato

E|-------------------------------------------------------------------------------------------------------
B|-------------------------------------------------------------------------------------------------------
G|-------------------------------------------------------------------------------------------------------
D|----------------------------------------------2--3/5---------------------------------------------------
A|--3--3--3--3--3--5----5--5--5--3--3--3--3--3----------5----3--3--3--3--3--5----5--5--5--3--3--3--3-----
E|-------------------------------------------------------------------------------------------------------



E|-----------------------------------------------------------------------------------------------------
B|-----------------------------------------------------------------------------------------------------
G|-----------------------------------------------------------------------------------------------------
D|-----2--3/5-----4--5/7----------------------------------------------8--7--7/3-------------8--7--7/3--
A|--3----------5----------7--7--8----7--7--8----7--7--8----7--7--8---------------3--3--5---------------
E|-----------------------------------------------------------------------------------------------------



E|---------------------------------------------------|--|------------------------------------------
B|---------------------------------------------------|--|------------------------------------------
G|---------------------------------------------------|--|------------------------------------------
D|-----------8--7--7/3-----------8--7--7/3-----------|--|------------------------------------------
A|--3--3--5-------------3--3--5-------------3--3--5--|--|--3--3--5----7--7--8----10--10--12----14--
E|---------------------------------------------------|--|------------------------------------------



E|--------------------------------------------------------------------------------------------------
B|--------------------------------------------------------------------------------------------------
G|--------------------------------------------------------------------------------------------------
D|--------------------------------------------------------------------------------------------------
A|--14--14--14--15----19/7--7--5--3-----3--5--3--0----------3--5--7--5--3-------3--5--3--0-----7----
E|-----------------------------------3--------------3----3-------------------3--------------3-------



E|--------------------------------------------------------------------------------------------------
B|--------------------------------------------------------------------------------------------------
G|--------------------------------------------------------------------------------------------------
D|--------------------------------------------------------------------------------------------------
A|-----3--5--7--5--3-------3--5--3--0--------------3--5--7--5--3-------3--5--3--0----------3--5--7--
E|--3-------------------3--------------3--------3-------------------3--------------3----3-----------



E|-------------------------------------------------------------------------------------------------
B|-------------------------------------------------------------------------------------------------
G|-------------------------------------------------------------------------------------------------
D|-------------------------------------------------------------------------------------------------
A|--5--3-----3--5--3--0-----7----5----3------3--5----3--5----3--5----3--5----3--3--5----7--7--8----
E|--------3--------------3-------------------------------------------------------------------------



E|---------------------------------------------------------------------------------------------------
B|---------------------------------------------------------------------------------------------------
G|---------------------------------------------------------------------------------------------------
D|---------------------------------------------------------------------------------------------------
A|--10--10--12----14--14--14--14--15-------19/7--5--3-------3--5--3--0----------3--5--7--5--3-----3--
E|-------------------------------------------------------3--------------3----3-----------------3-----



E|----------------------------------------------------------------------------------------------------
B|----------------------------------------------------------------------------------------------------
G|----------------------------------------------------------------------------------------------------
D|----------------------------------------------------------------------------------------------------
A|--5--3--0-----7-------3--5--7--5--3-------3--5--3--0----------3--5--7--5--3-------3--5--3--0--3-----
E|-----------3-------3-------------------3--------------3----3-------------------3--------------------



E|---------------------------------------------------------------------------------------------------
B|---------------------------------------------------------------------------------------------------
G|---------------------------------------------------------------------------------------------------
D|---------------------------------------------------------------------------5-----------------------
A|--7----5----7--3--7--3--7--3--7--3--7--7--7--3--7--3--7--3--7--3--7--7--7-------7--5--3------------
E|---------------------------------------------------------------------------------------------------



E|-----------------------------------------------------------------------------------------------|--
B|-----------------------------------------------------------------------------------------------|--
G|-----------------------------------------------------------------------------------------------|--
D|-----------------------------------------------------------------------------------------------|--
A|-----3--5--7--5--3-------3--5--3--0----------3--5--7--5--3-------3--5--3--0-----7----5----3----|--
E|--3-------------------3--------------3----3-------------------3--------------3-----------------|--
http://www.guitartabcreator.com
Guitar Tab Creator is intended to store guitar tab created through the tool. It currently does not support in-line text editing. Any text you place in here will be lost. If you need to comment on your tab, please use the "Tab Notes" section located below.