Who You Were

(/) Slide Up  (\) Slide Down  (h) Hammer On  (p) Pull Off  (b) Bend (r) Release (v) Vibrato
E|--------------------------------------------------------------------------
B|--------1--------1--------1--------1--------1--------1--------1--------1--
G|--------------------------------------------------------------------------
D|--0--3-----0--3-----0--3-----0--3--------3--------3--------3--------3-----
A|--------------------------------------3--------3--------3--------3--------
E|--------------------------------------------------------------------------



E|--------------------------------------------------------------------------
B|--------------------------------------------------------------------------
G|--------------------------------------------------------------------------
D|--------2--------2--------2--------2--------3--------3--------3--------3--
A|--0--3-----0--3-----0--3-----0--3-----0--5-----0--5-----0--5-----0--5-----
E|--------------------------------------------------------------------------
http://www.guitartabcreator.com
Guitar Tab Creator is intended to store guitar tab created through the tool. It currently does not support in-line text editing. Any text you place in here will be lost. If you need to comment on your tab, please use the "Tab Notes" section located below.