Happy Song

(/) Slide Up  (\) Slide Down  (h) Hammer On  (p) Pull Off  (b) Bend (r) Release (v) Vibrato

E|--8--------8--------8-----7--------7--------7-----
B|-----8--------8--------8-----8--------8--------8--
G|--------5--------5--------------5--------5--------
D|--------------------------------------------------
A|--------------------------------------------------
E|--------------------------------------------------



E|--5--------5--------5-----5--------5--------7-----
B|-----6--------6--------6-----6--------6--------8--
G|--------5--------5--------------5--------5--------
D|--------------------------------------------------
A|--------------------------------------------------
E|--------------------------------------------------
http://www.guitartabcreator.com
Guitar Tab Creator is intended to store guitar tab created through the tool. It currently does not support in-line text editing. Any text you place in here will be lost. If you need to comment on your tab, please use the "Tab Notes" section located below.