Megadeth - Almost Honest - Clean Picking Bridge

(/) Slide Up  (\) Slide Down  (h) Hammer On  (p) Pull Off  (b) Bend (r) Release (v) Vibrato


E|-----0--------0-----0-----0--------0-------------0--------0-------------0--------0-----------
B|--------0--------0---------------------------------------------------------------------------
G|-----------------------------8--------8-------------7--------7-------------6--------6--------
D|--9--------9-----------9--------9--------9----7--------7--------7-------------7--------7-----
A|---------------------------------------------------------------------0-----------------------
E|---------------------------------------------------------------------------------------------



E|-----0--------0-------------0--------0-------------0--------0-----0-------
B|------------------------------------------------------0--------0----------
G|--------5--------5-------------7--------7---------------------------------
D|--5--------5--------5----7--------7--------7----9--------9----------------
A|--------------------------------------------------------------------------
E|--------------------------------------------------------------------------



E|-----------------------------
B|--10----------9-----9--------
G|------9----------9-----9-----
D|---------9----------------9--
A|-----------------------------
E|-----------------------------
http://www.guitartabcreator.com
Guitar Tab Creator is intended to store guitar tab created through the tool. It currently does not support in-line text editing. Any text you place in here will be lost. If you need to comment on your tab, please use the "Tab Notes" section located below.