Gm

(/) Slide Up  (\) Slide Down  (h) Hammer On  (p) Pull Off  (b) Bend (r) Release (v) Vibrato

(W|WW) Whole (H|HH) Half (Q|QQ) Quarter (E|EE) 8th (S|SS) 16th (T|TT) 32nd (X|XX) 64th

t: none none none undefined none undefined none undefined none none undefined none none none undefined none undefined none none none undefined none undefined none undefined none undefined none none undefined none
E|-----|-----|-----|-----|--------|-----------|-----|-----|-----|-----|-----|-----|--------|--------
B|-----|-----|-----|-----|--------|-----------|-----|-----|-----|-----|-----|-----|--------|--------
G|-----|-----|-----|-----|--------|-----------|-----|-----|-----|-----|-----|-----|--------|--------
D|-----|--3--|--0--|-----|-----2--|--0--3-----|-----|-----|-----|-----|-----|-----|--------|--------
A|-----|-----|-----|--2--|--1-----|-----5--1--|--3--|-----|-----|--2--|--1--|-----|--3-----|--3-----
E|--5--|-----|-----|-----|--------|-----------|-----|--1--|--5--|-----|-----|--2--|-----3--|--------


t: none none none undefined none undefined
E|-----|-----|-----|--
B|-----|-----|-----|--
G|-----|-----|-----|--
D|-----|-----|-----|--
A|--5--|--1--|--3--|--
E|-----|-----|-----|--


t: none none none undefined none undefined none undefined none none none none none none none
E|-----|-----|-----|-----|-----|-----|-----|-----
B|-----|-----|-----|-----|-----|-----|-----|-----
G|-----|-----|-----|-----|-----|-----|-----|-----
D|-----|-----|-----|-----|-----|-----|-----|-----
A|-----|-----|-----|--3--|-----|-----|-----|--3--
E|--5--|--3--|--0--|-----|--5--|--3--|--0--|-----
http://www.guitartabcreator.com
Guitar Tab Creator is intended to store guitar tab created through the tool. It currently does not support in-line text editing. Any text you place in here will be lost. If you need to comment on your tab, please use the "Tab Notes" section located below.