riff 1

(/) Slide Up  (\) Slide Down  (h) Hammer On  (p) Pull Off  (b) Bend (r) Release (v) Vibrato

E|-------------------------------------------------------------------------
B|-------------------------------------------------------------------------
G|-----------7-------------7-----------------------------------------------
D|-----------6-------------6-----------------------------------------------
A|-----------5-------------5--0--0--0--0--8--7--5--0--0--0--0--5--3--2--0--
E|--0--0--0-------0--0--0-----0--0--0--0-----------0--0--0--0-----------0--



E|-------------------------------------------------------------------
B|-------------------------------------------------------------------
G|-------------------------------------------------------------------
D|-------------------------------------------------------------------
A|-------------------------------------------------------------------
E|--5--0--5--0--3--0--2--0--0--2------5--0--5--0--3--0--2--0--0--2\--
http://www.guitartabcreator.com
Guitar Tab Creator is intended to store guitar tab created through the tool. It currently does not support in-line text editing. Any text you place in here will be lost. If you need to comment on your tab, please use the "Tab Notes" section located below.