Comfortably Numb

(/) Slide Up  (\) Slide Down  (h) Hammer On  (p) Pull Off  (b) Bend (r) Release (v) Vibrato
E|--------------------
B|--3--2-----------3--
G|--4--2--0-----0--4--
D|--4--2--0-----2--4--
A|--2--0--2-----2--2--
E|--------3--2--0-----



E|--2--0--2--0--0--3--0--3--
B|--3--2--3--2--1--3--1--3--
G|--2--2--2--2--0--0--0--0--
D|--0--2--0--2--2--0--2--0--
A|-----0-----0--3--2--3--2--
E|-----------------3-----3--



E|--0--0--3--2--
B|--2--1--3--3--
G|--2--0--0--2--
D|--2--2--0--0--
A|--0--3--2-----
E|--------3-----



E|------14v----------14b15r14-----------------------------------------
B|--15-------------------------15b17------15--14--14------------------
G|--14------------------------------------------------14--------------
D|--------------------------------------------------------14v---------
A|--------------------------------------------------------------------
E|--------------------------------------------------------------------



E|-----------------14b15r14------------------------------------------------
B|---------------------------15b17------15--14-----------------------------
G|----------------------------------------------14-------------------------
D|--12--12v-----------------------------------------14--12--11-------------
A|--------------------------------------------------------------14--12-----
E|-------------------------------------------------------------------------



E|---------------------------------------------------------------------------
B|---------------------------------------------------------------------------
G|--12v--------11--9---------11\9--9----7--7v------9p7-----7--9--11--11b12v--
D|--------------------12v-------------------------------9--------------------
A|---------------------------------------------------------------------------
E|---------------------------------------------------------------------------



E|--15--14--12-----------------------------------------------------------------
B|--------------15--12---------------------------------------------------------
G|----------------------12-------------------------------------11b12--12-------
D|--------------------------12v------10p9--9----9\7--7v------------------------
A|-----------------------------------------------------------------------------
E|-----------------------------------------------------------------------------



E|------------------------------
B|------------------------------
G|--9b11--11r9--7---------------
D|-------------------7/9--7--7--
A|------------------------------
E|------------------------------



E|-----------------------------------------------------------
B|-----------------------------------------------------------
G|--7--9--9b11v------9b11r9p7-----7h9v----7--------7b9-------
D|-----------------------------9-------------9--9------------
A|-----------------------------------------------------------
E|-----------------------------------------------------------



E|-------------------------------------------------------10b11--
B|--------10------10--10----12--12b15----r12--12p10--12---------
G|--9/11------11------------------------------------------------
D|--------------------------------------------------------------
A|--------------------------------------------------------------
E|--------------------------------------------------------------



E|---------------------------------------------------------------------------------
B|---------------------------10p7-----7--------------------------------------------
G|--7--9--9b10r9p7-----------------9-----9--7-------------------------7b8----------
D|------------------9--------------------------9-------------7--7--9-------9p7--9--
A|------------------------------------------------------7/9------------------------
E|---------------------------------------------------------------------------------



E|--7--9--9b10----7------7-------------7------------------7----------------------------------
B|--7----------------10-----10b12------7--10--7--------7-----10--7---------------------------
G|-----------------------------------------------9b11---------------9--9b11r9p7-----9--7-----
D|-------------------------------------------------------------------------------9--------9--
A|-------------------------------------------------------------------------------------------
E|-------------------------------------------------------------------------------------------



E|------------------------------------------------7-------------------------------------------
B|---------------------------7--7--------------------7--10p7----------------------------------
G|---------------------------7--7--7b8------9b11--------------9--9b11r9p7-----9--7------------
D|--7----------------------------------------------------------------------9--------9p7-------
A|-----9--8--7\5-----5v------------------------------------------------------------------9\7--
E|----------------7---------------------------------------------------------------------------



E|---------------------------------------------------------------------7---------------------
B|------------------------------------------------------------------7-----10--------7--------
G|---------------------------------------------------7-----7--9b11------------9b11-----7--9--
D|-----------------------------------7--7--7----9p7-----9------------------------------------
A|--7--5--7p5-----5----7--------7/9----------------------------------------------------------
E|-------------7-----------------------------------------------------------------------------



E|-----------7----------------------------------------------------------------------------------
B|--------7-----10p7-------------------------------------------------7---------7-------7-----7--
G|--9b11--------------9--9b11r9p7-----9p7----------------------------7---------7-------7-----7--
D|---------------------------------9-------9--7-------------------------9---------9-------9-----
A|-----------------------------------------------9--8--7--5-----5p0-----------------------------
E|-----------------------------------------------------------7----------------------------------



E|------------------------------------7------------------------------7-------------------------
B|------------------------------------7--10--7--10b12v------------7-----10p7-------------------
G|--9b11----r9p7-----7--9--9b11v----------------------------9b11--------------9--11r9p7--------
D|----------------9----------------------------------------------------------------------9-----
A|---------------------------------------------------------------------------------------------
E|---------------------------------------------------------------------------------------------



E|-------------------------------------------------------------------------------------
B|----------------------------------------------------7--------7--7--7--------7--7-----
G|--9p7-----7-----------------------------------------7--------7--7--7--------7--7-----
D|-------9-----9--7--9--7-----7------------------9----------------------------------7--
A|-------------------------9-----9--8--7-----------------------------------------------
E|----------------------------------------10--7----------------------------------------



E|----------------------------------------------------------------------------------
B|-----7-------------7-------7---------------------7---------------------7----------
G|-----7-------9v----7-------7----------7----------7----------7----------7--9p7--9--
D|--7-----9p7-----------9p7-----9p7-----7--9p7--------9p7-----7--9p7----------------
A|-----------------------------------9----------9----------9----------9-------------
E|----------------------------------------------------------------------------------



E|------------------7--7--7--
B|--7--7--7----7----7--7--7--
G|--7--7--7----7----7--7--7--
D|--7--7--7------------------
A|---------------------------
E|---------------------------
http://www.guitartabcreator.com
Guitar Tab Creator is intended to store guitar tab created through the tool. It currently does not support in-line text editing. Any text you place in here will be lost. If you need to comment on your tab, please use the "Tab Notes" section located below.