Backwards Down the Number Line - Phish

(/) Slide Up  (\) Slide Down  (h) Hammer On  (p) Pull Off  (b) Bend (r) Release (v) Vibrato
E|--19r17--19r17--19r17--15--15--15------17--15--15--15--------------15--15--15---------------------
B|-----------------------------------------------------------15--17------------------15h17--15------
G|-----------------------------------16------------------16----------------------16-------------16--
D|--------------------------------------------------------------------------------------------------
A|--------------------------------------------------------------------------------------------------
E|--------------------------------------------------------------------------------------------------



E|--------------------------------------------------------------------------------------------------
B|------------12--13--12--13--12--13--12-------------------12---------13--13r12--10--12--13v--------
G|--16----12------------------------------12-------------------12\10--------------------------------
D|--------------------------------------------12\5--10/12-------------------------------------------
A|--------------------------------------------------------------------------------------------------
E|--------------------------------------------------------------------------------------------------



E|------15----------------------------------------------------------------------------------------
B|--17----------15---------------------------------------------------------------10/12v-----------
G|----------16----------16------------------------12\10----10--10--14--14--12---------------------
D|------------------17------17----------------12--------------------------------------------------
A|------------------------------17\12--12/14------------------------------------------------------
E|------------------------------------------------------------------------------------------------



E|----------------------------------------------------------------------------------------------
B|--12----12--12b13r12--13----13--12--10--13--13--12--10--13----12--10--13--12--10------12------
G|----------------------------------------------------------------------------------12------12--
D|----------------------------------------------------------------------------------------------
A|----------------------------------------------------------------------------------------------
E|----------------------------------------------------------------------------------------------



E|--10----10v-----
B|----------------
G|----------------
D|----------------
A|----------------
E|----------------
http://www.guitartabcreator.com
Guitar Tab Creator is intended to store guitar tab created through the tool. It currently does not support in-line text editing. Any text you place in here will be lost. If you need to comment on your tab, please use the "Tab Notes" section located below.