Henrik Freischlader 1999

(/) Slide Up  (\) Slide Down  (h) Hammer On  (p) Pull Off  (b) Bend (r) Release (v) Vibrato


E|-----------------------------------------------------------------------------
B|-----------------------------------------------------------------------------
G|-----------------------------------------------------------------------------
D|--------------------------------------4--------------------------------------
A|--4--4--2--4--2-----2--4--4--2--4--2-----4--2--4--2-----2--4--4--2--4--2-----
E|-----------------4-----------------------------------4--------------------0--



E|-----------------------------------------------------------------
B|-----------------------------------------------------------------
G|-----------------------------------------------------------------
D|-----------------------------------4-----------------------------
A|--4--2--4--2-----2--4--4--2--4--2-----4--2--4--2-----2-----2--4--
E|--------------4-----------------------------------4-----0--------



E|-----------------------------------------------------------------------------------
B|-----------------------------------------------------------------------------------
G|-----------------------------------------------------------------------------------
D|-----------------------------------------------------4--2--4--2-----2--------2-----
A|--4--2--4--2-----2-----4--4--2--4--2-----2-----------------------4-----2--4-----4--
E|--------------4-----0-----------------4-----0--2--2--------------------------------



E|--------------------------
B|--------------------------
G|--------------------------
D|--------------------------
A|--4--2--4--2-----2--------
E|--------------4-----0-----



E|-----------------------------------------------------------------------------
B|-----------------------------------------------------------------------------
G|-----------------------------------------------------------------------------
D|-----------------------------------------------------------------------------
A|-----------------------------------------------------------------------------
E|--2--2--2--2--2--2--2--2--5--5--5--5--5--5--5--4--3--2--2--2--2--2--2--2--2--



E|--------------------------------------------------
B|--------------------------------------------------
G|--------------------------------------------------
D|--------------4--2-----2--------------------------
A|-----------2--------4-----4--2--4--2-----2--------
E|--4--2--4-----------------------------4-----2--0--



E|-----------------------------------------------------------------------------
B|-----------------------------------------------------------------------------
G|-----------------------------------------------------------------------------
D|-----------------------------------------------------------------------------
A|--4--------------------2-----2--2--2--4--------------------2-----2--2--2-----
E|-----0--0--2--4--4--4-----4--------------0--0--2--4--4--4-----4--------------



E|--------------------------------------------------------------------------
B|--------------------------------------------------------------------------
G|-----------------------------------------------------------3-----------3--
D|-----------------------------------------------------2-----------2--------
A|--------------------------2--4--2--4--2--4--2--4--1-----1-----1-----1-----
E|--0--0--0--0--2--2--2--2--------------------------------------------------



E|-----------------------------------------------------------------------------------
B|-----------------------------------------------------------------------------------
G|-----------------------------------------------------------------------------------
D|-----------------------------------------------------------------------------------
A|--4--------------------2--4--4--------------------2--4--4--------------------2--4--
E|-----0--0--2--4--4--4-----------0--0--2--4--4--4-----------0--0--2--4--4--4--------



E|-----------------------------------------------------------------------------
B|-----------------------------------------------------------------------------
G|-----------------------------------------------------------------------------
D|-----------------------------------------------------------------------------
A|--4--------------------2-----2--2--2--4--------------------2-----2--2--2--4--
E|-----0--0--2--4--2--4-----4--------------0--0--2--4--2--4-----4--------------



E|--
B|--
G|--
D|--
A|--
E|--
http://www.guitartabcreator.com
Guitar Tab Creator is intended to store guitar tab created through the tool. It currently does not support in-line text editing. Any text you place in here will be lost. If you need to comment on your tab, please use the "Tab Notes" section located below.