Crawl - Veltpunch Bass Tab Intro

(/) Slide Up  (\) Slide Down  (h) Hammer On  (p) Pull Off  (b) Bend (r) Release (v) Vibrato


E|------------------------------------------------------------------------------------------
B|------------------------------------------------------------------------------------------
G|--12--12--12--11--12--11--12--12--12--11--12--11--12--12--12--11--12--11--12--14--12--14--
D|------------------------------------------------------------------------------------------
A|------------------------------------------------------------------------------------------
E|------------------------------------------------------------------------------------------



E|--------------------------------------------------------------------------
B|--------------------------------------------------------------------------
G|--------------------------------------------------------------------------
D|-----------------------------------------------4--------------5--4--------
A|--3--3--2--3--5--3--3--2--3-----5--5--5--5--5-----7--7--7--7--------7--5--
E|-----------------------------3--------------------------------------------



E|--------------------------------------------------------------------
B|--------------------------------------------------------------------
G|--------------------------------------------------------------------
D|-----------------------------------------------4--------------5--7--
A|--3--3--2--3--5--3--3--2--3-----5--5--5--5--5-----7--7--7--7--------
E|-----------------------------3--------------------------------------



E|--------------------------------------------------------------------------
B|--------------------------------------------------------------------------
G|--------------------------------------------------------------------------
D|-----------------------------------------------4--------------5--4--------
A|--3--3--2--3--5--3--3--2--3-----5--5--5--5--5-----7--7--7--7--------7--5--
E|-----------------------------3--------------------------------------------



E|-----------------------------------------------------------
B|-----------------------------------------------------------
G|-----------------------------------------------------------
D|-----------------------------------------------4-----------
A|--3--3--2--3--5--3--3--2--3-----5--5--5--5--5-----7--7--7--
E|-----------------------------3-----------------------------
http://www.guitartabcreator.com
Guitar Tab Creator is intended to store guitar tab created through the tool. It currently does not support in-line text editing. Any text you place in here will be lost. If you need to comment on your tab, please use the "Tab Notes" section located below.