Crawl - Veltpunch (after 2:43)

(/) Slide Up  (\) Slide Down  (h) Hammer On  (p) Pull Off  (b) Bend (r) Release (v) Vibrato

Stave 1:

E|------------------------------------------------------------------------------
B|------------------------------------------------------------------------------
G|--12--12--12--11--12--11--12--12--12--11--12--11--12--12--14--16--12--12--12--
D|------------------------------------------------------------------------------
A|------------------------------------------------------------------------------
E|------------------------------------------------------------------------------

Stave 2:

E|--------------------------------------------------------------------------------------------------
B|--------------------------------------------------------------------------------------------------
G|--------------------------------------------------------------------------------------------------
D|--------------------------------------------------------------------------------------------------
A|--3--3--3--3--3--3--3--3--5--5--5--5--5--5--5--5--7--7--7--7--7--7--7--7--2--2--2--2--2--2--2--2--
E|--------------------------------------------------------------------------------------------------

Stave 3:

E|--------------------------------------------------------------------------------------------------
B|--------------------------------------------------------------------------------------------------
G|--------------------------------------------------------------------------------------------------
D|--------------------------------------------------------------------------------------------------
A|--3--3--3--3--3--3--3--3--5--5--5--5--5--5--5--5--2--2--2--2--2--2--2--2--------------------------
E|--------------------------------------------------------------------------3--3--3--3--2--2--2--2--

Stave 4:

E|--------------------------------------------------------------------------------------------------
B|--------------------------------------------------------------------------------------------------
G|--------------------------------------------------------------------------------------------------
D|--------------------------------------------------------------------------------------------------
A|--3--3--3--3--3--3--3--3--5--5--5--5--5--5--5--5--7--7--7--7--7--7--7--7--2--2--2--2--2--2--2--2--
E|--------------------------------------------------------------------------------------------------

Stave 5:

E|--------------------------------------------------------------------------------------------------
B|--------------------------------------------------------------------------------------------------
G|--------------------------------------------------------------------------------------------------
D|--------------------------------------------------------------------------------------------------
A|--3--3--3--3--3--3--3--3--5--5--5--5--5--5--5--5--7--7--7--7--7--7--7--7--------------------------
E|--------------------------------------------------------------------------3-----------------------

Stave 6:

E|-----------------------------
B|-----------------------------
G|-----------------------------
D|-----------------------------
A|--3--5--5--5--5--7--2--0--2--
E|-----------------------------

Stave 7:

E|-----------------------
B|-----------------------
G|-----------------------
D|--------------------5--
A|--3--5--5--5--5--7-----
E|-----------------------

Stave 8:

E|--------------------------------------------------------------------------------------------------
B|--------------------------------------------------------------------------------------------------
G|--------------------------------------------------------------------------------------------------
D|--------------------------------------------------------------------------------------------------
A|--3--3--3--3--3--3--3--3--5--5--5--5--5--5--5--5--7--7--7--7--7--7--7--7--2--2--2--2--2--2--2--2--
E|--------------------------------------------------------------------------------------------------

Stave 9:

E|--------------------------------------------------------------------------------------------------
B|--------------------------------------------------------------------------------------------------
G|--------------------------------------------------------------------------------------------------
D|--------------------------------------------------------------------------------------------------
A|--3--3--3--3--3--3--3--3--5--5--5--5--5--5--5--5--7--7--7--7--7--7--7--7--------------------------
E|--------------------------------------------------------------------------3--3--3--3--3--3--3--3--

Stave 10:

E|--------------------------------------
B|--------------------------------------
G|--------------------------------------
D|--------------------------5--4--------
A|--3--5--7--2--3--5--7--7--------7--5--
E|--------------------------------------

Stave 11:

E|-----------------------------------------------
B|-----------------------------------------------
G|--------------------------7--------------------
D|-----5--------4--------5-----------------------
A|--3-----3--5-----5--7-----------------------9--
E|-----------------------------7--5--7--8--8-----

Stave 12:

E|--
B|--
G|--
D|--
A|--
E|--

http://www.guitartabcreator.com
Guitar Tab Creator is intended to store guitar tab created through the tool. It currently does not support in-line text editing. Any text you place in here will be lost. If you need to comment on your tab, please use the "Tab Notes" section located below.