Sooruna

(/) Slide Up  (\) Slide Down  (h) Hammer On  (p) Pull Off  (b) Bend (r) Release (v) Vibrato
t: E E E E E E E E E E E E none E E E E E E E E
E|-----------|--0-----------------1-----|--------------------0-----
B|-----1--3--|-----3--------3-----------|--3-----------3-----------
G|--0--------|--------0--------0-----0--|-----0-----0-----0-----0--
D|-----------|--------------------------|--2-----2-----------------
A|-----------|--3--------3--------------|--------------------------
E|-----------|--------------------------|--------------------------


t: E E E E E E E E E E E E E E E E E
E|--------------------1-----|--------------------------
B|--1-----------1-----------|--3-----------3-----1--3--
G|-----2-----2-----2-----2--|-----4-----4-----0--------
D|--3-----3-----------------|--5-----5-----------------
A|--------------------------|--------------------------
E|--------------------------|--------------------------



E|--
B|--
G|--
D|--
A|--
E|--
http://www.guitartabcreator.com
Guitar Tab Creator is intended to store guitar tab created through the tool. It currently does not support in-line text editing. Any text you place in here will be lost. If you need to comment on your tab, please use the "Tab Notes" section located below.