shortey

(/) Slide Up  (\) Slide Down  (h) Hammer On  (p) Pull Off  (b) Bend (r) Release (v) Vibrato

E|------------
B|--7---------
G|------------
D|-----9------
A|------------
E|--------10--



E|--6-----------
B|--------------
G|-----7--------
D|--------7-----
A|-----------7--
E|--------------



E|--3-----
B|--------
G|--------
D|-----4--
A|--------
E|--------



E|--
B|--
G|--
D|--
A|--
E|--
http://www.guitartabcreator.com
Guitar Tab Creator is intended to store guitar tab created through the tool. It currently does not support in-line text editing. Any text you place in here will be lost. If you need to comment on your tab, please use the "Tab Notes" section located below.