jelte 2

(/) Slide Up  (\) Slide Down  (h) Hammer On  (p) Pull Off  (b) Bend (r) Release (v) Vibrato


E|-----7--------|-----5-------|-----5-----|-----5-------|-----
B|-----8h10-----|-----7h8-----|-----5-----|-----5h8-----|-----
G|-----9--------|-----7-------|-----6-----|-----6-------|-----
D|-----9--------|-----7-------|-----7-----|-----7-------|-----
A|-----7--------|-----5-------|-----7-----|-----7-------|-----
E|--------------|-------------|-----5-----|-----5-------|-----



E|-----3-----|-----3-----|-----5-----|-----5--------------|-----3-----|-----3-----|-----5-----
B|-----5-----|-----3-----|-----7-----|-----7-----14\0-----|-----5-----|-----3-----|-----7-----
G|-----5-----|-----4-----|-----7-----|-----7-----14-0-----|-----5-----|-----4-----|-----7-----
D|-----5-----|-----5-----|-----7-----|-----7-----14-0-----|-----5-----|-----5-----|-----7-----
A|-----3-----|-----5-----|-----5-----|-----5-----12-0-----|-----3-----|-----5-----|-----5-----
E|-----------|-----3-----|-----------|-----------12-0-----|-----------|-----3-----|-----------
http://www.guitartabcreator.com
Guitar Tab Creator is intended to store guitar tab created through the tool. It currently does not support in-line text editing. Any text you place in here will be lost. If you need to comment on your tab, please use the "Tab Notes" section located below.