March Around Jericho

(/) Slide Up  (\) Slide Down  (h) Hammer On  (p) Pull Off  (b) Bend (r) Release (v) Vibrato


E|------------------------------------------------------------------------------------------------
B|-------------------------------------------2--5--5--5--5--2--0--0--0--0-------------------------
G|-------2-----------2-----------2--2--2--2-------------------------------------2-----------2-----
D|--5/6---------5/6---------5/6--------------------------------------------5/6---------5/6--------
A|------------------------------------------------------------------------------------------------
E|------------------------------------------------------------------------------------------------



E|------------------------------------------------------------------------
B|-------------------------------2--5--5--5--5--2--0--0--0--0-------------
G|-------2-----------2--2--2--2-------------------------------------2--2--
D|--5/6---------5/6--------------------------------------------5/6--------
A|------------------------------------------------------------------------
E|------------------------------------------------------------------------
http://www.guitartabcreator.com
Guitar Tab Creator is intended to store guitar tab created through the tool. It currently does not support in-line text editing. Any text you place in here will be lost. If you need to comment on your tab, please use the "Tab Notes" section located below.