Run - Intro Lead

(/) Slide Up  (\) Slide Down  (h) Hammer On  (p) Pull Off  (b) Bend (r) Release (v) Vibrato

Stave 1:

E|--2-----0--2--3--2-----------
B|-----3--------------3--5--2--
G|-----------------------------
D|-----------------------------
A|-----------------------------
E|-----------------------------

Stave 2:

E|--2-----0--2--3--2-----5-----
B|-----3--------------3-----2--
G|-----------------------------
D|-----------------------------
A|-----------------------------
E|-----------------------------

http://www.guitartabcreator.com
Guitar Tab Creator is intended to store guitar tab created through the tool. It currently does not support in-line text editing. Any text you place in here will be lost. If you need to comment on your tab, please use the "Tab Notes" section located below.