Dream Evil - Love is Blind

(/) Slide Up  (\) Slide Down  (h) Hammer On  (p) Pull Off  (b) Bend (r) Release (v) Vibrato


E|-----------------------------------------------------------------------------------
B|--------15-------------15-----------------------15-------------15------------------
G|-------------14-------------14--------14-------------14-------------14--------14---
D|---12-------------12-------------12--------12-------------12-------------12--------
A|-----------------------------------------------------------------------------------
E|-----------------------------------------------------------------------------------



E|-----------------------------------------------------------------------------------------
B|-----------------------------------------------------------------------------------------
G|-----------------------------------------------------------------------------------------
D|--------------------------------3---------------3------------------------------------3---
A|---5---5---10---8---5---3---5-------5---3---5-------5---5---5---10---8---5---3---5-------
E|-----------------------------------------------------------------------------------------



E|----------------------------------------
B|----------------------------------------
G|----------------------------------------
D|---12---3---0---0---3---3---8---7---0---
A|---12---3---0---0---3---3---8---7---0---
E|---12---3---0---0---3---3---8---7---0---



E|-------------------------------------------------------
B|-------------------------------------------------------
G|-------------------------------------------------------
D|---0---2---3---5---3---2---0---0---3---3---8---7---0---
A|---0---2---3---5---3---2---0---0---3---3---8---7---0---
E|---0---2---3---5---3---2---0---0---3---3---8---7---0---
http://www.guitartabcreator.com
Guitar Tab Creator is intended to store guitar tab created through the tool. It currently does not support in-line text editing. Any text you place in here will be lost. If you need to comment on your tab, please use the "Tab Notes" section located below.