Paint it Black

(/) Slide Up  (\) Slide Down  (h) Hammer On  (p) Pull Off  (b) Bend (r) Release (v) Vibrato

Stave 1:

E|--0--2--3--5--3--2--0--0-----0--2--0-----0--2--3--5--3--2--0--0-----0--2--0-----0--------------------
B|--------------------------4-----------4--------------------------4-----------4-----3--3--------------
G|-----------------------------------------------------------------------------------------0--0--------
D|-----------------------------------------------------------------------------------------------------
A|-----------------------------------------------------------------------------------------------------
E|-----------------------------------------------------------------------------------------------------

Stave 2:

E|--------------------------0--------------------------------------
B|--------0--0--0--------0-----3--3--------------0--0--0--------0--
G|--2--2-----------2--0--------------0--0--2--2-----------2--0-----
D|-----------------------------------------------------------------
A|-----------------------------------------------------------------
E|-----------------------------------------------------------------

http://www.guitartabcreator.com
Guitar Tab Creator is intended to store guitar tab created through the tool. It currently does not support in-line text editing. Any text you place in here will be lost. If you need to comment on your tab, please use the "Tab Notes" section located below.