Ode to Joy

(/) Slide Up  (\) Slide Down  (h) Hammer On  (p) Pull Off  (b) Bend (r) Release (v) Vibrato

(W|WW) Whole (H|HH) Half (Q|QQ) Quarter (E|EE) 8th (S|SS) 16th (T|TT) 32nd (X|XX) 64th

Stave 1:
t: Q Q Q Q Q Q Q Q Q Q Q Q Q Q H Q Q Q Q Q Q Q Q Q Q Q Q Q Q H
E|--0--0--1--3--3--1--0--------------0--0--------0--0--1--3--3--1--0--------------0-----------
B|-----------------------3--1--1--3--------3--3-----------------------3--1--1--3-----3--1--1--
G|--------------------------------------------------------------------------------------------
D|--------------------------------------------------------------------------------------------
A|--------------------------------------------------------------------------------------------
E|--------------------------------------------------------------------------------------------

Stave 2:
t:
E|--------0--------0--1--0--------0--1--0-----------3--0--0--1--3--3--1--0--------------0-----
B|--3--3-----0--3-----------0--3-----------3--0--3--------------------------3--0--0--3-----3--
G|--------------------------------------------------------------------------------------------
D|--------------------------------------------------------------------------------------------
A|--------------------------------------------------------------------------------------------
E|--------------------------------------------------------------------------------------------

Stave 3:
t:
E|--0--0--
B|--------
G|--------
D|--------
A|--------
E|--------

http://www.guitartabcreator.com
Guitar Tab Creator is intended to store guitar tab created through the tool. It currently does not support in-line text editing. Any text you place in here will be lost. If you need to comment on your tab, please use the "Tab Notes" section located below.