bone bite

(/) Slide Up  (\) Slide Down  (h) Hammer On  (p) Pull Off  (b) Bend (r) Release (v) Vibrato
E|---------------------------------------------------------------------------x--x----x--
B|---------------------------------------------------------------------------x--x----x--
G|----------------------------------------------0--2--0----------------------x--x----x--
D|----------0--2--0--------------------------2-----------2-------------2--3--4--4----4--
A|-------2-----------2-----------0h1h2h3--3-----------------3--2--3----------5--5----5--
E|--0/3-----------------3--2--3----------------------------------------------x--x----x--



E|--3-------------------3--3----3--
B|--3-------------------5--5----5--
G|--4-------------------5--5----5--
D|--5-------------------5--5----5--
A|--5-------0--2--3--3--3--3----3--
E|--3----3--------------3--3----3--



E|----------------------------------------------------------------------------------------x----x----x--
B|----------------------------------------------------------------------------------------x----x----x--
G|--------------------------------------------------0--2--0-------------------------------x----x----x--
D|------------0--2--0----------------------------2-----------2----------------0--2--3--4--4----4----4--
A|---------2-----------2-------------0h1h2--3-------------------3----2--3--4--------------5----5----5--
E|--0/3-------------------3----2--3-------------------------------------------------------x----x----x--



E|----------------------10v------
B|-------------------------------
G|-------------------------------
D|-------------------------------
A|--5--3--5--2--5--0-------------
E|-------------------------------



E|------------------------------------
B|------------------------------------
G|------------------------------------
D|----------0--2--0-------------------
A|-------2-----------2----------------
E|--0/3-----------------3----2----3v--
http://www.guitartabcreator.com
Guitar Tab Creator is intended to store guitar tab created through the tool. It currently does not support in-line text editing. Any text you place in here will be lost. If you need to comment on your tab, please use the "Tab Notes" section located below.