SBF

(/) Slide Up  (\) Slide Down  (h) Hammer On  (p) Pull Off  (b) Bend (r) Release (v) Vibrato

E|--------------------------------------------------------
B|--------------------------------------------------------
G|--------------------------------------------------------
D|-----------9-----5-----7-----------9-----5-----7-----5--
A|-----7--7-----3-----5--------7--7-----3-----5-----3-----
E|--5-----------------------5-----------------------------



E|--------------------
B|--------------------
G|--------------------
D|-----------------7--
A|-----5-----7--5-----
E|--3-----5-----------
http://www.guitartabcreator.com
Guitar Tab Creator is intended to store guitar tab created through the tool. It currently does not support in-line text editing. Any text you place in here will be lost. If you need to comment on your tab, please use the "Tab Notes" section located below.