Gonorrhea

(/) Slide Up  (\) Slide Down  (h) Hammer On  (p) Pull Off  (b) Bend (r) Release (v) Vibrato


E|--------------------------
B|--------------------------
G|--------------------------
D|-----7--------------------
A|--5--------8-----5-----7--
E|--------6-----3-----5-----



E|------------------------------------------------------------------------------
B|------------------------------------------------------------------------------
G|------------------------------------------------------------------------------
D|-----7-----9-----10-----7-----9-----10-----7-----9-----10-----5-----9-----10--
A|--5-----7-----8------5-----7-----8------5-----7-----8------3-----7-----8------
E|------------------------------------------------------------------------------
http://www.guitartabcreator.com
Guitar Tab Creator is intended to store guitar tab created through the tool. It currently does not support in-line text editing. Any text you place in here will be lost. If you need to comment on your tab, please use the "Tab Notes" section located below.