The Violet Hour

(/) Slide Up  (\) Slide Down  (h) Hammer On  (p) Pull Off  (b) Bend (r) Release (v) Vibrato
E|-----------7-----------5-----------0-----------------0-----------------0-----------------8--------
B|--------6-----------6-----------6-----6-----------6-----6-----------6-----6-----------6-----6-----
G|-----7-----------7-----------7-----------7-----7-----------7-----7-----------7-----7-----------7--
D|--0-----------0-----------0-----------------0-----------------8-----------------8-----------------
A|--------------------------------------------------------------------------------------------------
E|--------------------------------------------------------------------------------------------------



E|-----------0-----------------0--------
B|--------6-----6-----------6-----6-----
G|-----7-----------7-----7-----------7--
D|--0-----------------0-----------------
A|--------------------------------------
E|--------------------------------------



E|-----------1-----------------1--------------------------------------------------------------------
B|--------1-----1-----------1-----1--------------5-----------------5-----------------3--------------
G|-----2-----------2-----2-----------2--------5-----5-----------5-----5-----------3-----3-----------
D|--3-----------------3--------------------5-----------5-----5-----------5-----3-----------3-----3--
A|--------------------------------------3-----------------3-----------------1-----------------1-----
E|--------------------------------------------------------------------------------------------------



E|-----------------------1-----------------1--
B|-----3--------------1-----1-----------1-----
G|--3-----3--------2-----------2-----2--------
D|-----------3--3-----------------3-----------
A|--------------------------------------------
E|--------------------------------------------



E|--------------------------------------
B|--------6--------6--------6--------6--
G|-----7--------7--------7--------7-----
D|--------------------------------------
A|--5--------------------------7--------
E|-----------5--------6-----------------
<a href="http://www.911tabs.com/" target="_blank">911Tabs.Com</a> http://www.guitartabcreator.com
Guitar Tab Creator is intended to store guitar tab created through the tool. It currently does not support in-line text editing. Any text you place in here will be lost. If you need to comment on your tab, please use the "Tab Notes" section located below.