Lights

(/) Slide Up  (\) Slide Down  (h) Hammer On  (p) Pull Off  (b) Bend (r) Release (v) Vibrato


E|---------------------------------------------------------------12--14v----
B|---------------12--14--12--------------------------12--14--12-------------
G|--11/13--14----------------14--11v----11/13--14---------------------------
D|--------------------------------------------------------------------------
A|--------------------------------------------------------------------------
E|--------------------------------------------------------------------------



E|--14--12-------------------------------------------------------------------
B|----------14v----12------12--14--14----14--12------------------------------
G|---------------------14------------------------11v----13--14--13------11v--
D|------------------------------------------------------------------14-------
A|---------------------------------------------------------------------------
E|---------------------------------------------------------------------------
http://www.guitartabcreator.com
Guitar Tab Creator is intended to store guitar tab created through the tool. It currently does not support in-line text editing. Any text you place in here will be lost. If you need to comment on your tab, please use the "Tab Notes" section located below.