Dont Stop Believing

(/) Slide Up  (\) Slide Down  (h) Hammer On  (p) Pull Off  (b) Bend (r) Release (v) Vibrato


E|-------------------14----16b17--16--14--16b17--16--16b17--14--------------------------16b17--16--
B|---------14h16h17---------------------------------------------17--16--17--14---------------------
G|--14h16-----------------------------------------------------------------------16--14-------------
D|-------------------------------------------------------------------------------------------------
A|-------------------------------------------------------------------------------------------------
E|-------------------------------------------------------------------------------------------------



E|--14--16b17--16--14------19--
B|---------------------17------
G|-----------------------------
D|-----------------------------
A|-----------------------------
E|-----------------------------
http://www.guitartabcreator.com
Guitar Tab Creator is intended to store guitar tab created through the tool. It currently does not support in-line text editing. Any text you place in here will be lost. If you need to comment on your tab, please use the "Tab Notes" section located below.