in progress

(/) Slide Up  (\) Slide Down  (h) Hammer On  (p) Pull Off  (b) Bend (r) Release (v) Vibrato

E|-----------------------------------
B|-----------------------------------
G|--------------------12-------------
D|-----------10-15-12----12-15-12----
A|-----12\15----------------------15-
E|-0-8-------------------------------



E|---------------------------------
B|---------------------------------
G|---------------------------------
D|-0-0-10-10-10-10-0-0-7-7-7-7-----
A|-0-0-12-12-12-12-0-0-8-8-8-8-----
E|-0-0-8--8--8--8--0-0-5-5-5-5-5-3-



E|---------------------15-------------
B|------------13-17-15----15-17-15----
G|------15\17----------------------17-
D|-0-12-------------------------------
A|------------------------------------
E|------------------------------------



E|---------------------------------------------------
B|---------------------------------------------------
G|--------14--14--14--14--------9---9---9---9--------
D|--0--0--15--15--15--15--0--0--10--10--10--10-------
A|--0--0--12--12--12--12--0--0--7---7---7---7---7/5--
E|---------------------------------------------------
http://www.guitartabcreator.com
Guitar Tab Creator is intended to store guitar tab created through the tool. It currently does not support in-line text editing. Any text you place in here will be lost. If you need to comment on your tab, please use the "Tab Notes" section located below.