Something About a Woman

(/) Slide Up  (\) Slide Down  (h) Hammer On  (p) Pull Off  (b) Bend (r) Release (v) Vibrato

E|----------------------------------------------------------------------------
B|------------------------2--2--5--4--2------------------------2--2--5--4--2--
G|------------------------2--2--5--4--2------------------------2--2--5--4--2--
D|------------------------2--2--5--4--2------------------------2--2--5--4--2--
A|--------0--3p0-----0h3--0--0--------0--------0--3p0-----0h3--0--0--------0--
E|--0--3----------3----------------------0--3----------3----------------------



E|------------------------------3------------------------------------------
B|------------------------------3---------------------------2--2--5--4--2--
G|------------------------------4---------------------------2--2--5--4--2--
D|------------------------2--2--5--2------------------------2--2--5--4--2--
A|--------0--3p0-----0h3--2--2--5--2--------0--3p0-----0h3--0--0--------0--
E|--0--3----------3-------0--0--3--0--0--3----------3----------------------



E|--------------------------------------
B|--------------------------------------
G|------------------------7--7----7--7--
D|------------------------7--7----7--7--
A|--------0--3p0-----0h3--5--5----5--5--
E|--0--3----------3---------------------
http://www.guitartabcreator.com
Guitar Tab Creator is intended to store guitar tab created through the tool. It currently does not support in-line text editing. Any text you place in here will be lost. If you need to comment on your tab, please use the "Tab Notes" section located below.