Yesterday

(/) Slide Up  (\) Slide Down  (h) Hammer On  (p) Pull Off  (b) Bend (r) Release (v) Vibrato
E|--------------------------------2--3--2--0--0-----0-----0-----0--0-----------------------------
B|-----------------------2--4--5--------0-----------0-----0-----1--1--3--1--0-----1--0--0--------
G|--2--0--0-----0-----2-----2-----------0-----------0-----0-----0--0-----------2--0--0--0--------
D|--0--0--0-----0-----4-----4--------------------2-----0--------------0-----------0--0--0--------
A|--------------------------2--------------------------------3-----------------------------------
E|--3--------3-----2--------------------0-----------------------------------------3--------3-----



E|-----------------------------------------0--2--3--2--0--2--2--0--------3--3-----3-----3--------
B|--------0--------------0--0--0--0--0--0--0--3--1--0-----1--1-----3--1--0--0-----0-----0--------
G|--2--0-----2--------0-----0--2--2--2--2--0--2--0--0-----0--0-----2-----0--0-----0-----0--------
D|-----------------2--------0--2--2--1--1-----0--------------------0-----------------------------
A|--------------0-----3--------------2--2--------3--2-----0--------------------------------------
E|--2--0--------------------3--2-----------0-----------------------------3-----3-----3-----3-----



E|--------------0--2--3--2--0--2--2--0-----2--3-----------
B|--0--0--0--0--0--3--1--0-----1--1-----3-----0--3--1--0--
G|--2--2--2--2--0--2--0--0-----0--0-----2-----0-----------
D|--2--2--1--1-----0--------------------0-----------------
A|--------2-----------3--2-----0--------------------------
E|--2-----------0-----------------------------3-----------
http://www.guitartabcreator.com
Guitar Tab Creator is intended to store guitar tab created through the tool. It currently does not support in-line text editing. Any text you place in here will be lost. If you need to comment on your tab, please use the "Tab Notes" section located below.