Greensleves

(/) Slide Up  (\) Slide Down  (h) Hammer On  (p) Pull Off  (b) Bend (r) Release (v) Vibrato

E|---------------0---2p0-----------------------------------------------------------------0---
B|-------1---3-------------3---0-----------0---1-----------------0-----------0---1---3-------
G|---2-----------------------------0---2-----------2---2---1h2-------1-----------------------
D|-----------------------------------------------------3---------2-------2-------------------
A|-------0---2---3-----------------2-----------0---------------------------------0---2---3---
E|-------------------------3---------------------------------------------0-------------------



E|---2p0-------------------------------------------------------3---3---2p0-----------
B|---------3---0-----------0---1---0-----------------------------------------3---0---
G|-----------------0---2---------------2---1-------1---2---2-------------------------
D|---------------------------------------------4---------------2---2-----------------
A|-----------------2-----------0-----------------------0---0-------------------------
E|---------3-------------------------------0---------------------------------3-------



E|---------------------------------------------3---3---2p0-----------------------
B|-----------0---1-----------------0-------------------------3---0-----------0---
G|---0---2-----------2---2---1h2-------1-----------------------------0---2-------
D|-----------------------3---------2-------2---2---2-----------------------------
A|---2-----------0---------------------------------------------------2-----------
E|-----------------------------------------0-----------------3-------------------



E|-----------------------------------0--2p0-------------------------------------------3--
B|--1--0-----------------------1--3----------3--0--------0-----1-------------0-----------
G|--------2--1-----1--2--2--2----------------------0--2-----------2--2--1h2-----1--------
D|--------------4----------------------------------------------------3-------2-----2--2--
A|--0-----------------0--0-----0--2--3-------------2-----------0-------------------------
E|-----------0-------------------------------3-------------------------------------0-----



E|--3--2p0--------------------------------------------
B|----------3-----0--------0--1--0--------------------
G|-------------------0--2-----------2--1-----1--2--2--
D|--2-------------------------------------4-----------
A|-------------------2--------0-----------------0--0--
E|----------3--------------------------0--------------
http://www.guitartabcreator.com
Guitar Tab Creator is intended to store guitar tab created through the tool. It currently does not support in-line text editing. Any text you place in here will be lost. If you need to comment on your tab, please use the "Tab Notes" section located below.