Angry Birds

(/) Slide Up  (\) Slide Down  (h) Hammer On  (p) Pull Off  (b) Bend (r) Release (v) Vibrato


E|--------------5--------------5--5--6--5--3-----------------
B|--3--5--6--3-----3--5--6--3-----------------6--6--5--3-----
G|-----------------------------------------------------------
D|-----------------------------------------------------------
A|-----------------------------------------------------------
E|-----------------------------------------------------------



E|-----------------3--5-----5--7--8--7--8--7--8--7--8--10---------
B|--3--5--6--3--6--------3---------------------------------9--10--
G|----------------------------------------------------------------
D|----------------------------------------------------------------
A|----------------------------------------------------------------
E|----------------------------------------------------------------
http://www.guitartabcreator.com
Guitar Tab Creator is intended to store guitar tab created through the tool. It currently does not support in-line text editing. Any text you place in here will be lost. If you need to comment on your tab, please use the "Tab Notes" section located below.