The Workingman

(/) Slide Up  (\) Slide Down  (h) Hammer On  (p) Pull Off  (b) Bend (r) Release (v) Vibrato

E|------------------------------------------------
B|------------------------------------------------
G|------------------------------------------------
D|------------------------------------------------
A|------------------------------------------------
E|-0-0-0-0-0-0-0-0-0-0-0-0-0-0-0-0-9h13p9h13p9h13-



E|---------------------------------------------
B|---------------------------------------------
G|---------------------------------------------
D|---------------------------------------------
A|---------------------------------------------
E|-0-0-0-0-0-0-0-0-0-0-0-0-0-0-0-0-4h7p4h7p4h7-



E|---------------------------------------------
B|---------------------------------------------
G|---------------------------------------------
D|---------------------------------------------
A|---------------------------------------------
E|-0--0--0-0-0-0---0--0-0-0-0----0--0--0-0-0-0-



E|-------------------------------------------
B|-------------------------------------------
G|-----------------------------------8----8--
D|-----------------------------------12---12-
A|-------------------------------------------
E|-0-0--0-0-0-0---0--0-0-0-0---0--0-----0----



E|---------------------------------
B|---------------------------------
G|---------------------------------
D|---------------------------------
A|---------------------------------
E|-4-4-4-4-7-7-7-7-8-8-8-8-5-5-5-5-



E|---------------------------------
B|---------------------------------
G|---------------------------------
D|---------------------------------
A|---------------------------------
E|-0-0-0-0-1-1-1-1-5-5-5-5-4-4-4-4-



E|-------------------------------------------------------------------------
B|-------------------------------------------------------------------------
G|-------------------------------------------------------------------------
D|--12--12--12--12----12--12--12--12--------8--8--8--8----8--8--8--8----8--
A|--8---8---8---8-----10--10--10--10--------5--5--5--5----5--5--5--5----5--
E|--8---8---8---8-----10--10--10--10--------5--5--5--5----5--5--5--5----5--
http://www.guitartabcreator.com
Guitar Tab Creator is intended to store guitar tab created through the tool. It currently does not support in-line text editing. Any text you place in here will be lost. If you need to comment on your tab, please use the "Tab Notes" section located below.