Sunrise - solo

(/) Slide Up  (\) Slide Down  (h) Hammer On  (p) Pull Off  (b) Bend (r) Release (v) Vibrato
E|----------------------------------
B|--------------------10--------10--
G|--9/11--9/11--9/11------9/11------
D|----------------------------------
A|----------------------------------
E|----------------------------------



E|-------------------------------------------------------------------10------10/12--
B|-----------------------------------10--------10--10--------10--12------12---------
G|--11\9--7--7h9--7------------9/11------9/11------------11-------------------------
D|-------------------9--9-----------------------------------------------------------
A|----------------------------------------------------------------------------------
E|----------------------------------------------------------------------------------



E|---------10--12--10--12b--10-------------------------------------
B|--11/12-----------------------12--12------10---------------------
G|--------------------------------------11------11----9--7--9b--7--
D|-----------------------------------------------------------------
A|-----------------------------------------------------------------
E|-----------------------------------------------------------------



E|-------------------------------------------------------------
B|--------------------------------9--7----------7--------------
G|--------------------------7-----9--7----------7----9b--7-----
D|----------7----9--7----9-----9--------9--9----7--------------
A|--7--7h9-----------------------------------------------------
E|-------------------------------------------------------------



E|--------------------10h12p10---------10h12-----------10----12--10--
B|----------10h12p10------------10h12-----------11/12----------------
G|--9/11-------------------------------------------------------------
D|-------------------------------------------------------------------
A|-------------------------------------------------------------------
E|-------------------------------------------------------------------
http://www.guitartabcreator.com
Guitar Tab Creator is intended to store guitar tab created through the tool. It currently does not support in-line text editing. Any text you place in here will be lost. If you need to comment on your tab, please use the "Tab Notes" section located below.