Just Vibrations-Solo

(/) Slide Up  (\) Slide Down  (h) Hammer On  (p) Pull Off  (b) Bend (r) Release (v) Vibrato

E|------------0--3--3/5--7--5--3------------------------------3--3--3----------------------
B|--3--3h5p3----------------------5--5p3----------------3--5-----------5--5--3--------0/3--
G|----------------------------------------2--2-----2/4--------------------------4--2-------
D|----------------------------------------------5------------------------------------------
A|-----------------------------------------------------------------------------------------
E|-----------------------------------------------------------------------------------------



E|------------0--3--3/5--7--8--10--12/15--15--17--15-----------------------------------------
B|--3--3h5p3------------------------------------------17--15--15--17--15---------------------
G|------------------------------------------------------------------------16--14--12--9--12--
D|-------------------------------------------------------------------------------------------
A|-------------------------------------------------------------------------------------------
E|-------------------------------------------------------------------------------------------
http://www.guitartabcreator.com
Guitar Tab Creator is intended to store guitar tab created through the tool. It currently does not support in-line text editing. Any text you place in here will be lost. If you need to comment on your tab, please use the "Tab Notes" section located below.