Friday Afternoon

(/) Slide Up  (\) Slide Down  (h) Hammer On  (p) Pull Off  (b) Bend (r) Release (v) Vibrato

E|--------|--------------------------|--------------------------|--
B|--------|--------------------------|--------------------------|--
G|--------|--------0-----------0-----|--------2-----------0-----|--
D|--------|-----2-----2-----0-----0--|-----0-----0-----2-----2--|--
A|-----0--|--3-----------------------|--------------------------|--
E|--3-----|--------------3-----------|--2-----------0-----------|--



E|----------------------------|----------------------------|--
B|----------------------------|----------------------0-----|--
G|----------0-----------0-----|----------2--------------0--|--
D|-------2-----2-----0-----0--|-------0-----0-----0--------|--
A|--2h3-----------------------|----------------------------|--
E|----------------3-----------|--0h2-----------3-----------|--



E|--------2h3p2-----------2-----|--------0-----------2-----|-----
B|-----3---------3-----3-----3--|-----2-----2-----3-----3--|-----
G|--2---------------2-----------|--2-----------4-----------|-----
D|------------------------------|--------------------------|-----
A|------------------------------|--------------------------|-----
E|------------------------------|--------------------------|-----



E|--------2h3p2-----------2-----|--------3-----------0-----|--|--------3-----3--|--
B|-----3---------3-----3-----3--|-----3-----3-----2-----2--|--|-----3-----3-----|--
G|--2---------------2-----------|--0-----------2-----------|--|--0-----------0--|--
D|------------------------------|--------------------------|--|-----------------|--
A|------------------------------|--------------------------|--|-----------------|--
E|------------------------------|--------------------------|--|--------------3--|--
http://www.guitartabcreator.com
Guitar Tab Creator is intended to store guitar tab created through the tool. It currently does not support in-line text editing. Any text you place in here will be lost. If you need to comment on your tab, please use the "Tab Notes" section located below.