C Major Diatonic - 7 Positions

(/) Slide Up  (\) Slide Down  (h) Hammer On  (p) Pull Off  (b) Bend (r) Release (v) Vibrato


E|----------------------------------------------------------10--12--13--
B|----------------------------------------------10--12--13--------------
G|-----------------------------------9--10--12--------------------------
D|------------------------9--10--12-------------------------------------
A|-------------8--10--12------------------------------------------------
E|--8--10--12-----------------------------------------------------------



E|--------------------------------------------------------------12--13--15--
B|--------------------------------------------------12--13--15--------------
G|--------------------------------------10--12--14--------------------------
D|--------------------------10--12--14--------------------------------------
A|--------------10--12--14--------------------------------------------------
E|--10--12--13--------------------------------------------------------------



E|--------------------------------------------------------------13--15--17--
B|--------------------------------------------------13--15--17--------------
G|--------------------------------------12--14--16--------------------------
D|--------------------------12--14--15--------------------------------------
A|--------------12--14--15--------------------------------------------------
E|--12--13--15--------------------------------------------------------------



E|-----------------------------------------------3--5--7--
B|--------------------------------------3--5--6-----------
G|-----------------------------2--4--5--------------------
D|--------------------2--3--5-----------------------------
A|-----------2--3--5--------------------------------------
E|--1--3--5-----------------------------------------------



E|-----------------------------------------------5--7--8--
B|--------------------------------------5--6--8-----------
G|-----------------------------4--5--7--------------------
D|--------------3-----5-----7-----------------------------
A|-----------3-----5-----7--------------------------------
E|--3--5--7-----------------------------------------------



E|------------------------------------------------7--8--10--
B|--------------------------------------6--8--10------------
G|-----------------------------5--7--9----------------------
D|--------------------5--7--9-------------------------------
A|-----------5--7--8----------------------------------------
E|--5--7--8-------------------------------------------------



E|-----------------------------------------------------8--10--12--
B|------------------------------------------8--10--12-------------
G|--------------------------------7--9--10------------------------
D|----------------------7--9--10----------------------------------
A|------------7--8--10--------------------------------------------
E|--7--8--10------------------------------------------------------
http://www.guitartabcreator.com
Guitar Tab Creator is intended to store guitar tab created through the tool. It currently does not support in-line text editing. Any text you place in here will be lost. If you need to comment on your tab, please use the "Tab Notes" section located below.