11 7 12 acoustic

(/) Slide Up  (\) Slide Down  (h) Hammer On  (p) Pull Off  (b) Bend (r) Release (v) Vibrato

E|--------------------0-----------
B|--------1--------------1-----1--
G|-----0-----0-----0--------0-----
D|--3-----------3-----------------
A|--------------------------------
E|--------------------------------



E|-----------
B|--1--1--1--
G|--0--0--0--
D|--3-----0--
A|--x--3-----
E|--x--x--3--
http://www.guitartabcreator.com
Guitar Tab Creator is intended to store guitar tab created through the tool. It currently does not support in-line text editing. Any text you place in here will be lost. If you need to comment on your tab, please use the "Tab Notes" section located below.