JSP131094

(/) Slide Up  (\) Slide Down  (h) Hammer On  (p) Pull Off  (b) Bend (r) Release (v) Vibrato
Intro
E|---5-------------------5-------------------5-------------------5-2-2-2-2-2-2-
B|-------5---5---5---5-------4---4---4---4-------3---3---3---3-----2-2-2-2-2-2-
G|-3---3---3---3---3---3---3---3---3---3---3---3---3---3---3---3---2-2-2-2-2-2-
D|-----------------------------------------------------------------------------
A|-----------------------------------------------------------------------------
E|-----------------------------------------------------------------------------


Intro mini solo by you whilst i play 1st line.
E|--------------------------------------------------------------9h11-9h12-9h11-9h12-9h11-9h12-11b
B|---7-------------------9-------------------12--------------------------------------------------
G|-5---5-5-5-5-5-5-5-5-7---7-7-7-7-7-7-7-7-9----9-9-9-9-9-9-9-9----------------------------------
D|-----------------------------------------------------------------------------------------------
A|-----------------------------------------------------------------------------------------------
E|-----------------------------------------------------------------------------------------------



E|---------------------------------------------
B|---------------------------------------------
G|---------------------------------------------
D|-2-2---------2-2---------2-2---------3-3-4-4-
A|-2-2-2-2-2-2-2-2-2-2-2-2-2-2-2-2-2-2-3-3-4-4-
E|---------------------------------------------



E|---------------------------------------------
B|---------------------------------------------
G|---------------------------------------------
D|-2-2---------2-2---------2-2---------3-3-5-5-
A|-2-2-2-2-2-2-2-2-2-2-2-2-2-2-2-2-2-2-3-3-5-5-
E|---------------------------------------------



E|-------
B|-------
G|-------
D|-------
A|-------
E|-9\0---



E|---------------------------------------------
B|---------------------------------------------
G|---------------------------------------------
D|-2-2---------2-2---------2-2---------3-3-4-4-
A|-2-2-0-0-0-0-2-2-0-0-0-0-2-2-3-2-1-0-3-3-4-4-
E|---------------------------------------------



E|---------------------------------------------
B|---------------------------------------------
G|---------------------------------------------
D|-2-2---------2-2---------2-2---------3-3-5-5-
A|-2-2-0-0-0-0-2-2-0-0-0-0-2-2-3-2-1-0-3-3-5-5-
E|---------------------------------------------



E|-----------------------------------------------
B|-----------------------------------------------
G|-----------------------------------------------
D|-2-2---------2-2---------2-2-------------4-5-6-
A|-2-2-0-0-0-0-2-2-0-0-0-0-2-2-0-0-0-0-2/4-------
E|-----------------------------------------------



E|---------------------------------------------------
B|---------------------------------------------------
G|---------------------------------------------------
D|-2-2---------2-2---------2-2---------7-3-3-5-5-3-5-
A|-2-2-0-0-0-0-2-2-0-0-0-0-2-2-0-0-0-0-7-3-3-5-5-3-3-
E|---------------------------------------------------



E|---------------------------------------------------------------------------------
B|---------------------------------------------------------------------------------
G|---7-------------------7-------------------7-------------------7-----------------
D|-------7---7---7---7-------6---6---6---6-------5---5---5---5-------4---4---4---4-
A|-5---5---5---5---5---5---5---5---5---5---5---5---5---5---5---5---4---4---4---4---
E|---------------------------------------------------------------------------------



E|-------------------------------------------------------------------------------
B|-------------------------------------------------------------------------------
G|---7-------------------7-------------------7-------------------7---------------
D|-------7---7---7---7-------6---6---6---6-------5---5---5---5-----4-4-4-4-4-4---
A|-5---5---5---5---5---5---5---5---5---5---5---5---5---5---5---5---4-4-4-4-4-4---
E|-------------------------------------------------------------------------------



E|---------------------------------------------
B|---------------------------------------------
G|---------------------------------------------
D|-2-2---------2-2---------2-2---------3-3-4-4-
A|-2-2-2-2-2-2-2-2-2-2-2-2-2-2-2-2-2-2-3-3-4-4-
E|---------------------------------------------



E|---------------------------------------------
B|---------------------------------------------
G|---------------------------------------------
D|-2-2---------2-2---------2-2---------3-3-5-5-
A|-2-2-2-2-2-2-2-2-2-2-2-2-2-2-2-2-2-2-3-3-5-5-
E|---------------------------------------------



E|-----------------------------
B|-----------------------------
G|-----------------------------
D|-4-3-2-3-4-3-2-3-------------
A|-4-3-2-3-4-3-2-3-------------
E|-----------------0-3-4-5/9\5-


Bridge
E|---------------------------------
B|---------------------------------
G|---------------------------5-----
D|-----5-------5-------5---------5-
A|-0-0-3-0-0-0-3-0-0-0-3-0-3---3---
E|---------------------------------



E|----------------------------------
B|----------------------------------
G|----------------------------------
D|-----5-------5-------5-------5/7v-
A|-0-0-3-0-0-0-3-0-0-0-3-0-3/5------
E|----------------------------------



E|---------------------------------
B|---------------------------------
G|---------------------------5-----
D|-----5-------5-------5---------5-
A|-0-0-3-0-0-0-3-0-0-0-3-0-3---3---
E|---------------------------------



E|-----------------------------------------
B|-----------------------------------------
G|---------------------------------5h7-5h7-
D|-----5-------5-------5---3h5-3h5---------
A|-0-0-3-0-0-0-3-0-0-0-3-0-----------------
E|-----------------------------------------



E|---------------------------------
B|---------------------------------
G|---------------------------5-----
D|-----5-------5-------5---------5-
A|-0-0-3-0-0-0-3-0-0-0-3-0-3---3---
E|---------------------------------


End Bridge
E|-----------------------------
B|-----------------------------
G|-----------------------------
D|-----5-------5-------5---4-4-
A|-0-0-3-0-0-0-3-0-0-0-3-0-2-2-
E|-----------------------------


Begin Solo
E|-------------------------------
B|-------------------------------
G|-------------------------------
D|-2---------------------3-3-4-4-
A|-2-0-0-0-0-0-0-0-0-0-0-3-3-4-4-
E|-------------------------------



E|-------------------------------
B|-------------------------------
G|-------------------------------
D|-2---------------------3-3-5-5-
A|-2-0-0-0-0-0-0-0-0-0-0-3-3-5-5-
E|-------------------------------

End Solo

E|---------------------------------------------
B|---------------------------------------------
G|---------------------------------------------
D|-2-2---------2-2---------2-2---------3-3-4-4-
A|-2-2-2-2-2-2-2-2-2-2-2-2-2-2-2-2-2-2-3-3-4-4-
E|---------------------------------------------



E|---------------------------------------------
B|---------------------------------------------
G|---------------------------------------------
D|-2-2---------2-2---------2-2---------3-3-5-5-
A|-2-2-2-2-2-2-2-2-2-2-2-2-2-2-2-2-2-2-3-3-5-5-
E|---------------------------------------------



E|---------------------------------------------------------------------------------
B|---------------------------------------------------------------------------------
G|---7-------------------7-------------------7-------------------7-----------------
D|-------7---7---7---7-------6---6---6---6-------5---5---5---5-------4---4---4---4-
A|-5---5---5---5---5---5---5---5---5---5---5---5---5---5---5---5---4---4---4---4---
E|---------------------------------------------------------------------------------



E|-----------------------------------------------------------------------------
B|-----------------------------------------------------------------------------
G|---7-------------------7-------------------7-------------------7-------------
D|-------7---7---7---7-------6---6---6---6-------5---5---5---5-----4-4-4-4-4-4-
A|-5---5---5---5---5---5---5---5---5---5---5---5---5---5---5---5---4-4-4-4-4-4-
E|-----------------------------------------------------------------------------



E|-------------------------------------------------
B|-------------------------------------------------
G|-------------------------------------------------
D|-----2-2---------2-2---------2-2---------3-3-4-4-
A|-----2-2-0-0-0-0-2-2-0-0-0-0-2-2-3-2-1-0-3-3-4-4-
E|-9\0---------------------------------------------



E|---------------------------------------------
B|---------------------------------------------
G|---------------------------------------------
D|-2-2---------2-2---------2-2---------3-3-5-5-
A|-2-2-0-0-0-0-2-2-0-0-0-0-2-2-3-2-1-0-3-3-5-5-
E|---------------------------------------------



E|-----------------------------------------------
B|-----------------------------------------------
G|-----------------------------------------------
D|-2-2---------2-2---------2-2-------------4-5-6-
A|-2-2-0-0-0-0-2-2-0-0-0-0-2-2-0-0-0-0-2/4-------
E|-----------------------------------------------



E|---------------------------------------------------
B|---------------------------------------------------
G|---------------------------------------------------
D|-2-2---------2-2---------2-2---------7-3-3-5-5-3-5-
A|-2-2-0-0-0-0-2-2-0-0-0-0-2-2-0-0-0-0-7-3-3-5-5-3-3-
E|---------------------------------------------------



E|-------------------------
B|-------------------------
G|-------------------------
D|-4-4-3-3-4-4-5-5-4-4-3-3-
A|-2-2-1-1-2-2-3-3-2-2-1-1-
E|-------------------------


Hold the open draw in finish.
E|-----------------
B|-----------------
G|-----------------
D|--------------2--
A|--3--2--1--0--2--
E|-----------------
http://www.guitartabcreator.com
Guitar Tab Creator is intended to store guitar tab created through the tool. It currently does not support in-line text editing. Any text you place in here will be lost. If you need to comment on your tab, please use the "Tab Notes" section located below.