lol

(/) Slide Up  (\) Slide Down  (h) Hammer On  (p) Pull Off  (b) Bend (r) Release (v) Vibrato


E|-10-12-10----------------10----|-13-12-10-12-10----------10----12-13-12-|-
B|----------13-10----10-13----13-|----------------13-10-13----13----------|-
G|----------------12-------------|----------------------------------------|-
D|-------------------------------|----------------------------------------|-
A|-------------------------------|----------------------------------------|-
E|-------------------------------|----------------------------------------|-



E|-10-12-10----------------10----|-10-12-10----------------13-12-|-
B|----------13-10----10-13----13-|----------13-10----10-13-------|-
G|----------------12-------------|----------------12-------------|-
D|-------------------------------|-------------------------------|-
A|-------------------------------|-------------------------------|-
E|-------------------------------|-------------------------------|-



E|-10-12-10----------------10----|-13-12-10-12-10----------10----12-13-12-|-
B|----------13-10----10-13----13-|----------------13-10-13----13----------|-
G|----------------12-------------|----------------------------------------|-
D|-------------------------------|----------------------------------------|-
A|-------------------------------|----------------------------------------|-
E|-------------------------------|----------------------------------------|-



E|---5-3-------------|---5-5/8-5-------------------|-
B|-3-------5/6-5-3-5-|-3---------6-6/8---5/6-5-3-1-|-
G|-------5-----------|-----------------5-----------|-
D|-------------------|-----------------------------|-
A|-------------------|-----------------------------|-
E|-------------------|-----------------------------|-



E|----17-15-------------------|----17-20-17----------------------------
B|-15----------17/18-17-15-17-|-15----------18-18/20----17/18-17-15-13-
G|----------17----------------|----------------------17----------------
D|----------------------------|----------------------------------------
A|----------------------------|----------------------------------------
E|----------------------------|----------------------------------------



E|-10-12-10----------------10----|-10-12-10----------------13-12-|-
B|----------13-10----10-13----13-|----------13-10----10-13-------|-
G|----------------12-------------|----------------12-------------|-
D|-------------------------------|-------------------------------|-
A|-------------------------------|-------------------------------|-
E|-------------------------------|-------------------------------|-



E|-10-12-10----------------10-|-13-12-10-12-10----------10----12-13-12-
B|----------13-10----10-13----|----------------13-10-13----13----------
G|----------------12----------|----------------------------------------
D|----------------------------|----------------------------------------
A|----------------------------|----------------------------------------
E|----------------------------|----------------------------------------



E|-------------5-------5-----------|-
B|---5-6-5-------8-6-8---8-6-5---5-|-
G|-7-------7-5-----------------7---|-
D|---------------------------------|-
A|---------------------------------|-
E|---------------------------------|-



E|-------------5-8-5-------5-----------------|-
B|---5-6-5-----------8-6-8---8-6-5---5-6-5---|-
G|-7-------7-5---------------------7-------5-|-
D|-------------------------------------------|-
A|-------------------------------------------|-
E|-------------------------------------------|-



E|-------------------17----------17----------------|-
B|----17-18-17----------20-18-20----20-18-17----17-|-
G|-19----------19-17-------------------------19----|-
D|-------------------------------------------------|-
A|-------------------------------------------------|-
E|-------------------------------------------------|-



E|-------------------17-20-17----------17-------------------------|-
B|----17-18-17----------------20-18-20----20-18-17----17-18-17----|-
G|-19----------19-17-------------------------------19----------17-|-
D|----------------------------------------------------------------|-
A|----------------------------------------------------------------|-
E|----------------------------------------------------------------|-



E|-10-12-10----------------10----|-10-12-10----------------13-12-|-
B|----------13-10----10-13----13-|----------13-10----10-13-------|-
G|----------------12-------------|----------------12-------------|-
D|-------------------------------|-------------------------------|-
A|-------------------------------|-------------------------------|-
E|-------------------------------|-------------------------------|-



E|-10-12-10----------------10----|-13-12-10-12-10----------10----12-13-12-|-
B|----------13-10----10-13----13-|----------------13-10-13----13----------|-
G|----------------12-------------|----------------------------------------|-
D|-------------------------------|----------------------------------------|-
A|-------------------------------|----------------------------------------|-
E|-------------------------------|----------------------------------------|-



E|-10-12-10----------------10----|-10-12-10----------------13-12-|-
B|----------13-10----10-13----13-|----------13-10----10-13-------|-
G|----------------12-------------|----------------12-------------|-
D|-------------------------------|-------------------------------|-
A|-------------------------------|-------------------------------|-
E|-------------------------------|-------------------------------|-



E|-10-12-10----------------10----|-13-12-10-12-10----------10----12-13-12-|-
B|----------13-10----10-13----13-|----------------13-10-13----13----------|-
G|----------------12-------------|----------------------------------------|-
D|-------------------------------|----------------------------------------|-
A|-------------------------------|----------------------------------------|-
E|-------------------------------|----------------------------------------|-



E|-10-12-10----------------10----|-10-12-10----------------10----|-
B|----------13-10----10-13----13-|----------13-10----10-13----13-|-
G|----------------12-------------|----------------12-------------|-
D|-------------------------------|-------------------------------|-
A|-------------------------------|-------------------------------|-
E|-------------------------------|-------------------------------|-
http://www.guitartabcreator.com
Guitar Tab Creator is intended to store guitar tab created through the tool. It currently does not support in-line text editing. Any text you place in here will be lost. If you need to comment on your tab, please use the "Tab Notes" section located below.