riff 2

(/) Slide Up  (\) Slide Down  (h) Hammer On  (p) Pull Off  (b) Bend (r) Release (v) Vibrato


E|--------------------------------------------
B|--------------------------------------------
G|--------------------------------------------
D|--------------------------------------------
A|--------8-----7------10--8--------8---------10--------12p8-------8-----7----10--8-------
E|--0--0-----0----0-------------8----------8-------8----------0--0----0----0---------------------

A|--------10-p8------------8p7
E|---8--8---------7--7--





http://www.guitartabcreator.com
Guitar Tab Creator is intended to store guitar tab created through the tool. It currently does not support in-line text editing. Any text you place in here will be lost. If you need to comment on your tab, please use the "Tab Notes" section located below.