Song1

(/) Slide Up  (\) Slide Down  (h) Hammer On  (p) Pull Off  (b) Bend (r) Release (v) Vibrato
E|-----------------------------------------
B|-----------------------------------------
G|-----------------------------------------
D|--11--11--9--9--7--7--7--9--7--9--11-----
A|--0---0---0--0--0--0--0--0--0--0--0------
E|-----------------------------------------



E|--------------------------------
B|--------------------------------
G|--------------------------------
D|--7--7--6--6--7--7--7--9--7--6--
A|--5--5--5--5--5--5--5--5--5--5--
E|--0--0--0--0--0--0--0--0--0--0--



E|-------------------
B|-------------------
G|-------------------
D|----9p6--6--6h7/9--
A|-------------------
E|-------------------



E|--4--5--4--2--
B|--5--7--5--3--
G|--6--7--6--4--
D|--6--7--6--4--
A|--4--5--4--4--
E|--------------



E|------------------------------------------------------------12---------------------------------------
B|--14--12--12--10--10--12p9--9--9h10h12--14--14--12--12--10------10--10\9--9/10--10--10\9--9--9\7-----
G|-----------------------------------------------------------------------------------------------------
D|-----------------------------------------------------------------------------------------------------
A|-----------------------------------------------------------------------------------------------------
E|-----------------------------------------------------------------------------------------------------



E|---------------------12-----17p15p14--17p15p14--
B|--7--7\5--5/9--9--9------9----------------------
G|------------------------------------------------
D|------------------------------------------------
A|------------------------------------------------
E|------------------------------------------------



E|------------------------------------------------------------------12----------12------12--
B|--14--14--12--12--10--10--10--------10--------14--14--12--12--10------10--10------10------
G|------------------------------9--9------9--9----------------------------------------------
D|------------------------------------------------------------------------------------------
A|------------------------------------------------------------------------------------------
E|------------------------------------------------------------------------------------------



E|----------------------------------12p9------12p9------12p9------12--
B|--17/17/15--15/14--14/12--12--10--------10--------10--------10------
G|--------------------------------------------------------------------
D|--------------------------------------------------------------------
A|--------------------------------------------------------------------
E|--------------------------------------------------------------------
http://www.guitartabcreator.com
Guitar Tab Creator is intended to store guitar tab created through the tool. It currently does not support in-line text editing. Any text you place in here will be lost. If you need to comment on your tab, please use the "Tab Notes" section located below.