song idea

(/) Slide Up  (\) Slide Down  (h) Hammer On  (p) Pull Off  (b) Bend (r) Release (v) Vibrato


E|-----------------------------------------------------------------------------
B|-----------------------------------------------------------------------------
G|-----3--------3--------3--------3-----------3--------3-----------------------
D|--4-----4--4-----4--3-----3--3-----3--0--1-----1--1-----1-----3--------3-----
A|-----------------------------------------------------------4-----4--4-----4--
E|-----------------------------------------------------------------------------



E|--------------
B|--2--2--2-----
G|--3--3--3--0--
D|--4--3--1--3--
A|-----------4--
E|--------------
http://www.guitartabcreator.com
Guitar Tab Creator is intended to store guitar tab created through the tool. It currently does not support in-line text editing. Any text you place in here will be lost. If you need to comment on your tab, please use the "Tab Notes" section located below.