Song 3

(/) Slide Up  (\) Slide Down  (h) Hammer On  (p) Pull Off  (b) Bend (r) Release (v) Vibrato


E|--------------------------------------------------------------------------------9--9h10h9--
B|-------------------------------------------------------------------------------------------
G|--11--11--11--11--9--6--6--6b6--11--11--11--11--9--6--6--6b6--11--11--11--9--6-------------
D|-------------------------------------------------------------------------------------------
A|-------------------------------------------------------------------------------------------
E|-------------------------------------------------------------------------------------------



E|---------------------9--9--9h10h9--
B|-----------------------------------
G|--11--11--11--11--9----------------
D|-----------------------------------
A|-----------------------------------
E|-----------------------------------



E|-------5--
B|--2----7--
G|--2----6--
D|--2----7--
A|--0----5--
E|----------
http://www.guitartabcreator.com
Guitar Tab Creator is intended to store guitar tab created through the tool. It currently does not support in-line text editing. Any text you place in here will be lost. If you need to comment on your tab, please use the "Tab Notes" section located below.