mfgakg

(/) Slide Up  (\) Slide Down  (h) Hammer On  (p) Pull Off  (b) Bend (r) Release (v) Vibrato
E|-----------------------------------------------------
B|-----------------------------------------------------
G|-----------------------------------------------------
D|--------4--------4-----4--4-----4-----------4--------
A|--0--0-----0--0-----0--------0-----0--0--0-----0-----
E|-----------------------------------------------------



E|--------------------------------------------------
B|--------------------------------------------------
G|--------------------------------------------------
D|--------4--------4-----4--4-----4-----------4-----
A|--4--4-----4--4-----4--------4-----4--4--4-----4--
E|--------------------------------------------------



E|--------------------------------------------------------------------------------------
B|--------------------------------------------------------------------------------------
G|--------------------------------------------------------------------------------------
D|--------4-----5--5-----7-----5-----4-----5-----5-----5-----5-----5-----2-----2-----2--
A|--5--5-----5--------5-----5-----5-----5-----5-----5-----5-----5-----5-----5-----5-----
E|--------------------------------------------------------------------------------------



E|--------------
B|--------------
G|--------------
D|-----2-----2--
A|--5-----5-----
E|--------------



E|-------------------------
B|-------------------------
G|-------------------------
D|--0----0----0----0----0--
A|--4----4----4----4----5--
E|-------------------------



E|---------------
B|---------------
G|---------------
D|--4----5----0--
A|--4----5----0--
E|--4----5----0--



E|--------------------------
B|--------------------------
G|-----7-----7-----7-----7--
D|--------------------------
A|--5-----5-----5-----5-----
E|--------------------------



E|--------------------------------
B|--------------------------------
G|-----7-----7-----7-----7-----7--
D|--------------------------------
A|--4-----4-----5-----5-----5-----
E|--------------------------------
http://www.guitartabcreator.com
Guitar Tab Creator is intended to store guitar tab created through the tool. It currently does not support in-line text editing. Any text you place in here will be lost. If you need to comment on your tab, please use the "Tab Notes" section located below.