Go To Hell For Heavens Sake

(/) Slide Up  (\) Slide Down  (h) Hammer On  (p) Pull Off  (b) Bend (r) Release (v) Vibrato
E|----------------------------------
B|----------------------------------
G|--------------------7----9----10--
D|--7--3----5----0----x----x----x---
A|--7--3----5----0----5----7----8---
E|--7--3----5----0----0----0----0---



E|-----------------------------------------------------------------------
B|--10-------------------10----------------------------------------------
G|------9--9--12--9--12------10--10--9--10--10--9--12--12--9--10--10--9--
D|-----------------------------------------------------------------------
A|-----------------------------------------------------------------------
E|-----------------------------------------------------------------------



E|---------------
B|---------------
G|--7----9-------
D|--x----x----3--
A|--5----7----3--
E|--0----0----3--



E|------13--12-------
B|--10---------------
G|--------------7h9--
D|-------------------
A|-------------------
E|-------------------



E|------------------
B|------------------
G|------------------
D|--9----7----7--5--
A|--7----5----3--5--
E|--7----5----3--5--



E|-------------
B|------10--8--
G|--10---------
D|-------------
A|-------------
E|-------------



E|---------------------
B|---------------------
G|-----------------10--
D|--9----7----7----x---
A|--7----5----3----8---
E|--7----5----3--------
http://www.guitartabcreator.com
Guitar Tab Creator is intended to store guitar tab created through the tool. It currently does not support in-line text editing. Any text you place in here will be lost. If you need to comment on your tab, please use the "Tab Notes" section located below.