I Could Be The One

(/) Slide Up  (\) Slide Down  (h) Hammer On  (p) Pull Off  (b) Bend (r) Release (v) Vibrato


E|------------------------------16--14--------------16--14------------------------------------------
B|----------15--14----------------------17--17--14----------14----------12--------------------------
G|--14--------------14------14--------------------------------------14------14--13--11------14--13--
D|------16--------------16--------------------------------------16----------------------11----------
A|--------------------------------------------------------------------------------------------------
E|--------------------------------------------------------------------------------------------------



E|--------------------------
B|--------------------------
G|----------11----------14--
D|--14--11------14--16------
A|--------------------------
E|--------------------------
http://www.guitartabcreator.com
Guitar Tab Creator is intended to store guitar tab created through the tool. It currently does not support in-line text editing. Any text you place in here will be lost. If you need to comment on your tab, please use the "Tab Notes" section located below.