Did You Think to Pray?

(/) Slide Up  (\) Slide Down  (h) Hammer On  (p) Pull Off  (b) Bend (r) Release (v) Vibrato
E|---------------------------|--------------------------|--------------------------|--
B|--2--------2--2/3\2--0-----|--------------------------|--0--------0--3-----2-----|--
G|--------2---------------2--|--------------2-----2-----|--------------------------|--
D|---------------------------|--2-----2-----------------|--------2-----------------|--
A|-----0---------------------|-----0-----0-----0-----0--|-----------------------0--|--
E|---------------------------|--------------------------|-----0-----------0--------|--



E|--------------------------|--------------------------|--------------0-----------|--
B|--0--------0--------------|--0--------0--0--0-----0--|--2-----------------------|--
G|--------------1--------1--|--------------------------|-----------2-----------2--|--
D|--------2-----------2-----|--------2-----------2-----|--------2-----------2-----|--
A|-----------------2--------|-----2--------------------|-----0-----------0--------|--
E|-----0--------------------|--------------------------|--------------------------|--



E|---------------------------|--------------------------|--------------------------|--
B|--2--------2--2/3\2--0-----|--------------------------|--------------0-----2-----|--
G|--------2---------------2--|--------------2--------2--|--1--------2--------------|--
D|---------------------------|--4--------4--------------|--------2--------------2--|--
A|-----0---------------------|--------4-----------4-----|-----------------2--------|--
E|---------------------------|-----2-----------2--------|-----0--------------------|--



E|--------------------------|--0--------0--2p0-----0--|--5-----------0-----------|--
B|-----------2-----------2--|--------2----------4-----|--2--------2-----------2--|--
G|--2-----2-----2-----2-----|-----2-------------------|--2-----2-----------2-----|--
D|--------------------------|-------------------------|--2--2-----------2--------|--
A|-----0-----------0--------|-------------------------|--0-----------------------|--
E|--------------------------|-------------------------|--------------------------|--



E|--0--------0--2p0-------|--------------------------|---------------------------|--
B|-------------------3p2--|--0--------0--------------|--2--------2--2/3\2--0-----|--
G|--------2---------------|--------------1--------1--|--------2---------------2--|--
D|-----2------------------|--------2-----------2-----|---------------------------|--
A|------------------------|-----------------2--------|-----0---------------------|--
E|------------------------|-----0--------------------|---------------------------|--



E|--------------------------|-----------------------|--------------0--4--5--|--
B|--------------------------|--------------0-----2--|-----------2--------5--|--
G|--------------2-----------|--1--------2--1-----2--|--------2-----------6--|--
D|--4--------4-----------4--|--2-----2--2--2-----2--|-----2--------------7--|--
A|--------4-----------4-----|-----------------------|--0-----------------7--|--
E|-----2-----------2--------|-----0-----------0-----|--------------------5--|--
http://www.guitartabcreator.com
Guitar Tab Creator is intended to store guitar tab created through the tool. It currently does not support in-line text editing. Any text you place in here will be lost. If you need to comment on your tab, please use the "Tab Notes" section located below.