Holy Wars solo

(/) Slide Up  (\) Slide Down  (h) Hammer On  (p) Pull Off  (b) Bend (r) Release (v) Vibrato


E|--15--17--15--12----------------------12--15--17--15--12------------------------------
B|------------------17--15--12--15--17----------------------17--15--12--15--17--15--12--
G|--------------------------------------------------------------------------------------
D|--------------------------------------------------------------------------------------
A|--------------------------------------------------------------------------------------
E|--------------------------------------------------------------------------------------



E|--------------------------------------------------------------------------------------
B|--15--17--15--12----------------------12--15--17--15--12------------------------------
G|------------------15--14--12--14--15----------------------15--14--12--14--15--14--12--
D|--------------------------------------------------------------------------------------
A|--------------------------------------------------------------------------------------
E|--------------------------------------------------------------------------------------



E|--------------------------------------------------------------------------------------
B|--------------------------------------------------------------------------------------
G|--14--15--14--12----------------------12--14--15--14--12------------------------------
D|------------------14--13--12--13--14----------------------14--13--12--13--14--13--12--
A|--------------------------------------------------------------------------------------
E|--------------------------------------------------------------------------------------



E|----------------------------------------------------------------------------------
B|----------------------------------------------------------------------------------
G|----------------------------------------------------------------------------------
D|--13--14--13--12----------------------12--13--14--13--12--------------------------
A|------------------14--13--12--13--14----------------------14--13--12--------------
E|----------------------------------------------------------------------15--14--12--



E|-----
B|-----
G|-----
D|-----
A|-----
E|--0--



E|--
B|--
G|--
D|--
A|--
E|--
http://www.guitartabcreator.com
Guitar Tab Creator is intended to store guitar tab created through the tool. It currently does not support in-line text editing. Any text you place in here will be lost. If you need to comment on your tab, please use the "Tab Notes" section located below.