My Song

(/) Slide Up  (\) Slide Down  (h) Hammer On  (p) Pull Off  (b) Bend (r) Release (v) Vibrato
E|---2-3-0---2-3-0---2-3-0---2-3-0---2-3-0---2-3-0---2-3-0---2-3-0-
B|-2-------2-------2-------2-------2-------2-------2-------2-------
G|-----------------------------------------------------------------
D|-----------------------------------------------------------------
A|-----------------------------------------------------------------
E|-----------------------------------------------------------------



E|-0-0-0-0-0-0---0-0-0-0-0---0-0-0-0-0-0---0-0-0-0-0---
B|-----------------------------------------------------
G|-------------4-----------4-------------4-----------4-
D|-----------------------------------------------------
A|-----------------------------------------------------
E|-----------------------------------------------------



E|-0-0-0-0-0-0-2-2-2-2-2-2-3-3-3-3-3-3-5-5-5-5-5-5-
B|-------------------------------------------------
G|-------------------------------------------------
D|-------------------------------------------------
A|-------------------------------------------------
E|-------------------------------------------------



E|-0-0-0-0-0-0-2-2-2-2-2-2-3-3-3-3-3-3-5-5-5-5-5-5-
B|-------------------------------------------------
G|-------------------------------------------------
D|-------------------------------------------------
A|-------------------------------------------------
E|-------------------------------------------------



E|-0-0-0-0-0-0-------------------------------------
B|-------------2-2-2-2-2-2-3-3-3-3-3-3-5-5-5-5-5-5-
G|-------------------------------------------------
D|-------------------------------------------------
A|-------------------------------------------------
E|-------------------------------------------------



E|-0-0-0-0-0-0-------------------------------------
B|-------------2-2-2-2-2-2-3-3-3-3-3-3-5-5-5-5-5-5-
G|-------------------------------------------------
D|-------------------------------------------------
A|-------------------------------------------------
E|-------------------------------------------------



E|-0-0-0-0-0-0---------------------------
B|-------------2-2-2-2-2-2-1-1-1-1-1-1-2-
G|---------------------------------------
D|---------------------------------------
A|---------------------------------------
E|---------------------------------------



E|-2-2-2-2-2-2---2-2-2-2-0-0-
B|-------------2-------------
G|---------------------------
D|---------------------------
A|---------------------------
E|---------------------------



E|-----2--3--0-----2--3--0-----2--3--0-----2--3--0-----2--3--0-----2--3--0-----2--3--0-----2--3--0--
B|--2-----------2-----------2-----------2-----------2-----------2-----------2-----------2-----------
G|--------------------------------------------------------------------------------------------------
D|--------------------------------------------------------------------------------------------------
A|--------------------------------------------------------------------------------------------------
E|--------------------------------------------------------------------------------------------------
http://www.guitartabcreator.com
Guitar Tab Creator is intended to store guitar tab created through the tool. It currently does not support in-line text editing. Any text you place in here will be lost. If you need to comment on your tab, please use the "Tab Notes" section located below.