black panther

(/) Slide Up  (\) Slide Down  (h) Hammer On  (p) Pull Off  (b) Bend (r) Release (v) Vibrato

E|--------------------------------------------------------------------
B|--------------------------------------------------------------------
G|--------------------------------------------------------------------
D|----------12--------------12------------------10-------------9------
A|--12--12------12--12--12------12--12--12--10------12--12--8-----10--
E|--------------------------------------------------------------------



E|------------------------------------------------------
B|------------------------------------------------------
G|----------12----------------------9-------------------
D|--10--10------10--9--9--10----------------------------
A|----------------------------7--7-----7--7------10--7--
E|-------------------------------------------10---------



E|-----------------------------------------------------------------
B|-----------------------------------------------------------------
G|----------------------------------9------7---------9--12---------
D|----------12--------------12---------10-----9--10---------12-----
A|--12--12------12--12--12------12---------------------------------
E|-----------------------------------------------------------------
http://www.guitartabcreator.com
Guitar Tab Creator is intended to store guitar tab created through the tool. It currently does not support in-line text editing. Any text you place in here will be lost. If you need to comment on your tab, please use the "Tab Notes" section located below.