Tyler The Creator - Nightmare

(/) Slide Up  (\) Slide Down  (h) Hammer On  (p) Pull Off  (b) Bend (r) Release (v) Vibrato


E|------18------16------14--
B|------------------14------
G|--13------16--------------
D|--------------------------
A|--------------------------
E|--------------------------



E|----------16------18------
B|--16----------14------16--
G|------15------------------
D|--------------------------
A|--------------------------
E|--------------------------



E|------15------13----------
B|------------------15--14--
G|--16------16--------------
D|--------------------------
A|--------------------------
E|--------------------------
http://www.guitartabcreator.com
Guitar Tab Creator is intended to store guitar tab created through the tool. It currently does not support in-line text editing. Any text you place in here will be lost. If you need to comment on your tab, please use the "Tab Notes" section located below.